Stop Censorship
 
 

 
 1-9 a b c d e f g h i j k l m n o p q r s t u v w x y z
   Ramones - Poison Heart Tab    

Band:Ramones
Song:Poison Heart
By:Ramones4ever

Intro:Rythm Guitar

e|---------------------|------------------------|-----------------------------------|
B|-5--55555------------|-5--5555---9------------|-5--55555--------------------------|
G|-6--66666---8--88888-|-6--6666---9---8--88888-|-6--66666--8--88888--5--55555-55555|
D|-6--66666---9--99999-|-6--6666---9---9--99999-|-6--66666--9--99999--7--77777-77777|
A|-4--44444---9--99999-|-4--4444---7---9--99999-|-4--44444--9--99999--7--77777-77777|
E|------------7--77777-|---------------7--77777-|-----------7--77777--5--55555-55555|

Intro:Lead Guitar
X3| let Notes Ring
e|---------------------------------|---0--------0-----------------------------|
B|----5--2--4-----4h5--4h5p4-4--2--|------0---------0-------------------------|
G|-6-----------4-------------------|-2--------2-------------------------------|
D|---------------------------------|------------------------------------------|
A|---------------------------------|------------------------------------------|
E|---------------------------------|------------------------------------------|

Verse
Palm Mute x3|
e|-----------------|----------------------------------|
B|-5555555--9999999|----------------------------------|
G|-6666666--9999999|-6--666---8--888------------------|
D|-6666666--9999999|-7--777---9--999------------------|
A|-4444444--7777777|-7--777---9--999------------------|
E|-----------------|-5--555---7--777------------------|

Chorus

e|---------------------------------------------------------------------------|
B|-------------------5--5555----------------------------5--5555--5--5555-----|
G|-6--6666--8--8888--6--6666-6--6666--6--6666--8--8888--6--6666--6--6666-----|
D|-7--7777--9--9999--6--6666-7--7777--7--7777--9--9999--6--6666--6--6666-----|
A|-7--7777--9--9999--4--4444-7--7777--7--7777--9--9999--4--4444--4--4444-----|
E|-5--5555--7--7777----------5--5555--5--5555--7--7777-----------------------|

Bridge:Rythm

e|------------------------------------------|
B|-9-999999---------------------------------|
G|-9-999999--6-666666-----------------------|X2
D|-9-999999--7-777777-----------------------|
A|-7-777777--7-777777-----------------------|
E|-----------5-555555-----------------------|

Bridge:lead

e|---------------------------------------------------------|
B|---------------------------------------------------------|
G|-------------------------6--9--7--6----------------------|X2
D|-----6--9--7--6------77-------------7--------------------|
A|-77-------------7----------------------------------------|
E|---------------------------------------------------------|

Outro
e|------------------------------------------------|
B|-------5~---------------------------------------|
G|-6--8--6~---------------------------------------|
D|-7--9--6~---------------------------------------|
A|-7--9--4~---------------------------------------|
E|-5--7-------------------------------------------|

Intro
Verse x2
Chorus x2
intro
verse x2
Chorus x2
intro
bridge
verse x2
chorusx3
Intro