Stop Censorship
 
 

 
 1-9 a b c d e f g h i j k l m n o p q r s t u v w x y z
   Ozma - Korobeiniki Tab    

Ozma - Korobeiniki

Intro
E------------------------------------|----------------------------|
B------------------------------------|----------------------9-9p8-|
G-8888----6666-----------------------|-8888----6666------8h9------|
D-----9999----8888-9999-6666-88888888|-----9999----8888-9---------|
A------------------------------------|----------------------------|
B------------------------------------|----------------------------| (x1)

Verse
E----------------------------------------|-------------------------------------|
B----------------------------------------|-----9--7----------------------------|
G-8-----6-----------8-6---------6-8------|-6-9------9-8---8-----------6-8------|
D---8h9---9-8-6-6-8-----9-8-8-9-----9-66-|--------------9---9-8-6-8-9-----9-66-|
A----------------------------------------|-------------------------------------|
E----------------------------------------|-------------------------------------| (x2)

Breakdown (slower)
E-----------------|----------------------|
B-----------------|----------------9-9p8-|
G-8---6-----------|-8---6------8h9-------|
D---9---8--9--6---|---9---8--9-----------|
A---------------6-|----------------------|
E-----------------|----------------------| (x1)

Verse 2
E----------------------------------------|-------------------------------------|
B----------------------------------------|-----9--7----------------------------|
G-8-----6-----------8-6---------6-8------|-6-9------9-8---8-----------6-8------|
D---8h9---9-8-6-6-8-----9-8-8-9-----9-66-|--------------9---9-8-6-8-9-----9-66-|
A----------------------------------------|-------------------------------------|
E----------------------------------------|-------------------------------------| (x1)

Bass solo

Repeat Intro
E------------------------------------|----------------------------|
B------------------------------------|----------------------9-9p8-|
G-8888----6666-----------------------|-8888----6666------8h9------|
D-----9999----8888-9999-6666-88888888|-----9999----8888-9---------|
A------------------------------------|----------------------------|
B------------------------------------|----------------------------| (x1)

Verse 3
E----------------------------------------|-------------------------------------|
B----------------------------------------|-----9--7----------------------------|
G-8-----6-----------8-6---------6-8------|-6-9------9-8---8-----------6-8------|
D---8h9---9-8-6-6-8-----9-8-8-9-----9-66-|--------------9---9-8-6-8-9-----9-66-|
A----------------------------------------|-------------------------------------|
E----------------------------------------|-------------------------------------| (x2)

Outro
E--------------------------|------------------------------|
B--------------------------|------------------------------|
G-8-----6-----------8---10-|-8---------9-66---6-----------|
D---8h9---9-8-6---9--------|---9-66--6------9---8-9-5-666-|
A--------------------------|------------------------------|
E--------------------------|------------------------------|

Thats it. enjoy.