Stop Censorship
 
 

 
 1-9 a b c d e f g h i j k l m n o p q r s t u v w x y z
   Mana - Mariposa Traicionera Tab    


Send any corrections or suggestions to Drugz@Drug.org (Alaa) (Egypt)

(Intro)

e|--------------8-8-8------8--------------------|
B|--9--9--9--9--9-9-9--9---9--9---11---8~-------|
G|--10-10-10-10--------10-----10--12---8~-------|
D|----------------------------------------------|
A|----------------------------------------------|
E|----------------------------------------------|

e|----------6-6-6-----6---------------------------------------------------------|
B|-8-8-8-8--8-8-8--8--8--8---9-----6~--------9-9-9----9---8---6-----------------|
G|-8-8-8-8---------8-----8---10----6~---5/8---8-8---8---8---8-----5--5/8---5~---|
D|------------------------------------------------------------------------------|
A|------------------------------------------------------------------------------|
E|------------------------------------------------------------------------------|

Electric Guitar Clean

Fill 1

This is played at the end of every verse.
e|----------------------------------------------|
B|----------------------------------------------|
G|----------------------------------------------|
D|--5h6--5--------------------------------------|
A|----------8---6--6/8--------------------------|
E|----------------------------------------------|


VERSE

Eres como una mariposa.....
Fm D# C# G#
e|-8-----6-----4------4-----------|
B|-9-----8-----6------4-----------|
G|-10----8-----6------5-----------|
D|-10----8-----6------6-----------|
A|-8-----6-----4------6-----------|
E|-x-----x-----x------4-----------|


Fill 2 (little Fill at 0:48)
e|-----6---8--6----------|
B|-----8---9--8----------|
G|-----------------------|
D|-----------------------|
A|-----------------------|
E|-----------------------|


CHORUS

Guitar 1

Mariposa traicionera..... todo se lo lleva.....
C# D# G# Fm
e|-4-----6-----4------8-----------|
B|-6-----8-----4------9-----------|
G|-6-----8-----5------10----------|
D|-6-----8-----6------10----------|
A|-4-----6-----6------8-----------|
E|-x-----x-----4------x-----------|

Guitar 2
c# D#
e|--------9---------9---|---------11-----------11-------|
B|-9--9---9--9--9---9---|--11-11--11---11--11--11-------|
G|-10-10-----10-10------|--12-12-------12--12-----------|
D|----------------------|-------------------------------|
A|----------------------|-------------------------------|
E|----------------------|-------------------------------|

G# Fm
e|---------11----------11--|-----------13-------------13---|
B|--13-13--13--13--13--13--|----13-13--13----13--13---13---|
G|--13-13------13--13------|----13-13--------13--13--------|
D|-------------------------|-------------------------------|
A|-------------------------|-------------------------------|
E|-------------------------|-------------------------------|

This is played at the end of chorus

e|----------------------------------------------|
B|--------------8h10--8-------8h10--------------|
G|--9--10--12-------------10--------------------|
D|----------------------------------------------|
A|----------------------------------------------|
E|----------------------------------------------|

POST-CHORUS

Ahi mariposa de amor....... Vuela amor.....

Fm D# Gm Fm Fm A# Fm C Fm
e|-8-----3-----x------1------|---8-------6-----1----3-----1-------|
B|-9-----5-----x------1------|---9-------6-----1----5-----1-------|
G|-10----5-----3------1------|---10------7-----1----5-----1-------|
D|-10----5-----5------3------|---10------8-----3----5-----3-------|
A|-8-----3-----5------3------|---8-------8-----3----3-----3-------|
E|-x-----x-----3------1------|---x-------6-----1----x-----1-------|


Fill 4 (played at 1:52 and 3:50)
e|----------------------------------------------|
B|----------------------------------------------|
G|--0--7--5--3--3h2h0--2--3---------------------|
D|----------------------------------------------|
A|----------------------------------------------|
E|----------------------------------------------|


SOLO

e|-5-5-5---6--8---------------------------------------------6~--------|
B|-6-6-6---6--8-----------------9---8--6--8--6--8--6------------------|
G|------------------[Start]---6---6--------------------3/6------------|
D|--------------------------------------------------------------------|
A|--------------------------------------------------------------------|
E|--------------------------------------------------------------------|

e|--3-4-3-4-3-4-3-----------------------------------------|
B|-----------------------6~--6--8--6--8--9-8--------------|
G|------------------3/6-----------------------5--5/8--5---|
D|--------------------------------------------------------|
A|--------------------------------------------------------|
E|--------------------------------------------------------|

e|-------------8--------------------------------|
B|--------8-9--9--9-8-9-8-----------------------|
G|-8--10-------------------10--8--8h10~---------|
D|----------------------------------------------|
A|----------------------------------------------|
E|----------------------------------------------|


OUTRO

e|--------------8-8-8------8--------------------|
B|--9--9--9--9--9-9-9--9---9--9---11---8~-------|
G|--10-10-10-10--------10-----10--12---8~-------|
D|----------------------------------------------|
A|----------------------------------------------|
E|----------------------------------------------|

e|----------6-6-6-----6---------------------------------------------------------|
B|-8-8-8-8--8-8-8--8--8--8---9-----6~--------9-9-9----9---8---6-----------------|
G|-8-8-8-8---------8-----8---10----6~---5/8---8-8---8---8---8-----5--5/8---5~---|
D|------------------------------------------------------------------------------|
A|------------------------------------------------------------------------------|
E|------------------------------------------------------------------------------|

e|-------------8--------------------------------|
B|--------8-9--9--9-8-9-8-----------------------|
G|-8--10-------------------10--8--8h10~---------|
D|----------------------------------------------|
A|----------------------------------------------|
E|----------------------------------------------|