Stop Censorship
 
 

 
 1-9 a b c d e f g h i j k l m n o p q r s t u v w x y z
   Jose De Azpiazu - El Vito Tab    


I can`t tell how much i love Flamenco music.. i`m trying now to figure out Paco De Lucia version

Send any corrections or suggestions to Drugz@drug.org (Alaa) (Egypt)

Here we go!

E||------12--12--12--12--||---12----7--8--10--7--|--8----12--12--12--12--|
B||----------------------||----------------------|-----------------------|
G||----------------------||*---------------------|-----------------------|
D||----------------------||*---------------------|-----------------------|
A||----------------------||----------------------|--0--------------------|
E||----------------------||---0------------------|-----------------------|



--12----10p-8--7------|-------0--0--0--0--|--0----------------|
------------------10--|--9----------------|-------0--1--3--0--|
----------------------|-------------------|-------------------|
----------------------|-------------------|-------------------|
--0-------------------|-------------------|-------------------|
----------------------|--0----------------|--4----------------|



-------0--0--0--0--|--0----------------|-------------------|
--1----------------|-------3p-1--0-----|-------------------|
-------------------|----------------2--|--1----------1--2--|
-------------------|-------------------|-------2--4--------|
--0----------------|--3----------------|-------------------|
-------------------|-------------------|--0----------------|



--------------------|--------------------|--1p-0--------------|
--------0--1--3--0--|--1p-0-----0--1--3--|--------3--1--0-----|
--4p-3--------------|--------2-----------|-----------------2--|
--------------------|--------------------|--0-----------------|
--------------------|--0-----------------|--------------------|
--0-----------------|--------------------|--------------------|



-------------------|--------------------|--------------------|
-------------------|--------0--1--3--0--|--1p-0-----0--1--3--|
--1----------1--2--|--4p-3--------------|--------2-----------|
-------2--4--------|--------------------|--------------------|
-------------------|--------------------|--0-----------------|
--0----------------|--0-----------------|--------------------|


E
--1p-0--------------|-------0--0--0--0--|--0----------------|
--------3--1--0-----|-------0--0--0--0--|--0----0--1--3--0--|
-----------------2--|--1----1--1--1--1--|--1----------------|
--0-----------------|--2----2--2--2--2--|--2----------------|
--------------------|-------2--2--2--2--|--2----------------|
--------------------|-------0--0--0--0--|--0----------------|


Am E
-------0--0--0--0--|--0----------------|-------0--0--0--0--|--0----------------|
--1----1--1--1--1--|--1----3p-1--0-----|-------0--0--0--0--|--0----------------|
-------2--2--2--2--|--2-------------2--|--1----1--1--1--1--|--1----------------|
-------2--2--2--2--|--2----------------|-------2--2--2--2--|--2----------0-----|
-------0--0--0--0--|--0----------------|-------2--2--2--2--|--2----2--3-----2--|
-------------------|-------------------|-------0--0--0--0--|--0----------------|


Am E
-------0--0--0--0--|--0----------------|-------0--0--0--0--|
-------1--1--1--1--|--1----------------|-------0--0--0--0--|
-------2--2--2--2--|--2----------------|-------1--1--1--1--|
-------2--2--2--2--|--2----------------|-------2--2--2--2--|
--3----0--0--0--0--|--0----5p-3--2--0--|-------2--2--2--2--|
-------------------|-------------------|--4----0--0--0--0--|


FM7#11/E E FM7#11/E
--0--0--0--0--0--0--|--0--0--0--0--0--0--|--0--0--0--0--0--0--|
--0--0--0--0--0--0--|--0--0--0--0--0--0--|--0--0--0--0--0--0--|
--2--2--2--2--2--2--|--1--1--1--1--1--1--|--2--2--2--2--2--2--|
--3--3--3--3--3--3--|--2--2--2--2--2--2--|--3--3--3--3--3--3--|
--3--3--3--3--3--3--|--2--2--2--2--2--2--|--3--3--3--3--3--3--|
--0--0--0--0--0--0--|--0--0--0--0--0--0--|--0--0--0--0--0--0--|


E E
--0--0-0-0-0--0--0----|--0----0----0----|--12---------12----|
--0--0-0-0-0--0--0----|--0--------------|-------------9-----|
--1--1-1-1-1--1--1----|--1--------------|--------9----------|
--2--2-2-2-2--2--2----|--2--------------|-------------------|
--2--2-2-2-2--2--2----|--2--------------|-------------------|
--0--0-0-0-0--0--0----|--0--------------|--0----------------|



--12---------10----|--10---------8-----|-------7----8----|--12----7---------|
-------------9-----|-------------10----|-----------------|-------------0----|
--------9----------|--------9----------|-----------------|--0---------------|
-------------------|-------------------|-----------------|------------------|
-------------------|--0----------------|--0--------------|------------------|
--0----------------|-------------------|-----------------|------------------|



--8---------5----|--4--------------|-------0----0----|--12---------12----|
------------4----|------------5----|-----------------|-------------9-----|
-------4---------|-------4---------|-----------------|--------9----------|
--4--------------|-----------------|-----------------|-------------------|
-----------------|-----------------|-----------------|-------------------|
-----------------|--0--------------|--0--------------|--0----------------|



--12---------10----|--10---------8-----|-------7----8----|--12----7---------|
-------------9-----|-------------10----|-----------------|-------------0----|
--------9----------|--------9----------|-----------------|--0---------------|
-------------------|-------------------|-----------------|------------------|
-------------------|--0----------------|--0--------------|------------------|
--0----------------|-------------------|-----------------|------------------|



--8---------5----|--4--------------||--------0----4----|--7---------4----|
------------4----|------------5----||------------------|------------5----|
-------4---------|-------4---------||*-----------------|-------4---------|
--4--------------|-----------------||*-----------------|-----------------|
-----------------|-----------------||------------------|-----------------|
-----------------|--0--------------||---0--------------|--0--------------|



-------5----7----|--5--7--5-------4----|-------5----7----|--8----5---------|
-------6---------|----------------5----|-----------------|------------5----|
-------5---------|-----------4---------|-----------------|-------5---------|
-----------------|---------------------|-----------------|-----------------|
-----------------|---------------------|-----------------|--0--------------|
--0--------------|--0------------------|--0--------------|-----------------|


Dm6 E Dm6 E
--7----3---------|--1---------0-----||--------1--1--1--1--|--0----1----0-----||
------------3----|-------0----------||--------0--0--0--0--|--0----0----0-----||
-------4---------|--2---------1----*||*-------2--2--2--2--|--1----2----1----*||
-----------------|--0--------------*||*-------0--0--0--0--|--2----0----2----*||
-----------------|------------------||--------------------|--2---------2-----||
--3--------------|------------------||---0----------------|--0---------0-----||


Dm6 E Dm6 E
-------1--1--1--1--||---0--0--1--1--1--1---||--0--0-0-0-0--0--0----|
-------0--0--0--0--||---0--0--0--0--0--0---||--0--0-0-0-0--0--0----|
-------2--2--2--2--||*--1--2--2--2--2--2--*||--1--1-1-1-1--1--1----|
-------0--0--0--0--||*--2--2--0--0--0--0--*||--2--2-2-2-2--2--2----|
-------------------||---2--2---------------||--2--2-2-2-2--2--2----|
--0----------------||---0--0---------------||--0--0-0-0-0--0--0----|


E7 Am
--0----12--12--12--12---||--0--------0----|--5------------||
--0---------------------||--0--------3----|--5------------||
--1--------------------*||--1--------1----|--5------------||
--2--------------------*||--2--------2----|--7------------||
--2---------------------||--2--------2----|---------------||
--0---------------------||--0--------0----|---------------||