Stop Censorship
 
 

 
 1-9 a b c d e f g h i j k l m n o p q r s t u v w x y z
   Hoobastank - The Reason Tab    

Band:Hoobastank
Song:The Reason
Album:The Reason (2003)
Tabbed by evilpenguin47

Standard tuning

intro
e|-----|
B|-----|
G|-----|
D|--2--|
A|-----|
E|-----| play this note 32x play part 1 (see below) twice after 16x then:

Verse *part 1* *part 2*
e|----------------------| |----------------------|
B|-------9---------9----| |----------------------|
G|--9-11---8--9-11---8--| |-----8-9-------8-9----|
D|----------------------| |--11-----9--11-----9--|
A|----------------------| |----------------------|
E|----------------------| |----------------------|
-
Order of verse:
Part 1 2x
Part 2 2x
Part 1 2x
Part 2 4x

Verse background:
e|-----|-----|-----|-----|-----|-----|
B|-----|-----|-----|-----|-----|-----|
G|-----|-----|-----|-----|-----|-----|
D|--2--|-----|--2--|-----|-----|-----|
A|-----|--4--|-----|--4--|-----|--2--|
E|-----|-----|-----|-----|--5--|-----|
16x| 16x| 16x| 16x| 16x| 16x|

Right before the chorus:
e|--11h12--|
B|---------|
G|---------|
D|---------|
A|---------| play this a few times
E|---------|

Chorus:
e|-----------------|
B|-----------------|
G|------6-------4--|
D|--2---6---7---4--|
A|--2---4---7---2--| these are the chords used in this order
E|--0-------5------|

Bridge:
e|-----------------|
B|-----------------|
G|-----------------|
D|--7---2---7---2--|
A|--7---2---7---2--| same here just chords in order no rhythms
E|--5---0---5---0--|

End on:
e|-----|
B|-----|
G|-----|
D|--2--|
A|--2--|
E|--0--|