Stop Censorship
 
 

 
 1-9 a b c d e f g h i j k l m n o p q r s t u v w x y z
   Final Fantasy X - To Zanarkand Tab    

I really like this peice for the guitar, it`s not EXACTLY like
the oringinal, but a tad different, which makes it unique.
So, here you go, work with it and have fun.

:::Fingerpicked
:::Standard Tunning

If you have any questions, just email me, rikku_soul@yahoo.com

E--0-----0-2-3-------------------------------------------
B----------------3-----------------0-0-0-0-----3-----1---
G------0-------------------2----------------2-------0----
D-----2----------0---0-2-4-------------2-4---------2-----
A----2-------3------0------0-------2-3------------3------
E--0-------2-------2-----------------------------0-------

E--0--0--0--0-----3---------0---0-3----------------------
B--------------3--------1--1---1-------------------------
G--------2--4----------0--0---0--------------------------
D--2--4---------------2--2-------------------------------
A--------------------3-----------------------------------
E-------------------0------------------------------------

E-------0---0-2-----3--2--0----0-------------------------
B---------0------------------3---3-----------------------
G----------------------------0---------------------------
D--------------------------------------------------------
A--------------------------------------------------------
E--------------------------------------------------------

E-------0---0-2------3--2--3--5--3--5----7---------------
B---------0---------0---------5---------8----------------
G--------------------------------------7-----------------
D--------------------------------------------------------
A--------------------------------------------------------
E--------------------------------------------------------

E-------0---0-2-----3--2--0----0-------------------------
B---------0------------------3---3-----------------------
G-------------------------------------------------------
D--------------------------------------------------------
A--------------------------------------------------------
E--------------------------------------------------------

E----------------------------------------0---0-3---------
B-------0-0-0-0---3------------------0--0---0------------
G--0-2----------2-----0-------------0--0---0-------------
D-----------------0------4--0--2---2--2------------------
A----0--2-2-2-2-0-----------------2----------------------
E--3---------------------------0-------------------------



E------7-7----5----3----2----10---10------5-----12----12-
B--5---7-7----5----3----3----10---10------5----------(12)
G--4-4-7-7----6----4----4----10---10------5--------------
D--5-----------------------0--0--------------------------
A-------------0-----------0---------------0--------------
E--0---7----------------2--------------------------------

E--7----5---3---2------------0---------------------------
B--8----5-------0----3------0----------------------------
G--7-----------------------0-----------------------------
D-------------------------2------------------------------
A------------------------2-------------------------------
E-----------------------0--------------------------------

E-------0---0-2----3--2--0----0--------------------------
B------0--0--------0---------3---3------0----------------
G-----0----------------------0---------0-----------------
D----2--------------------------------2------------------
A---2--------------------------------2-------------------
E--0--------------------------------0--------------------

E-------0---0-2------3--2--3--5--3--5----7---------------
B------0--0---------0---------5---------8----------------
G-----0------------0-------0-----------7-----------------
D----2------------0--------------------------------------
A---2------------2------------0--------------------------
E--0------------3----------------------------------------

E-------0---0-2-----3--2--0----0-------------------------
B------0--0--------0---------3---3------0----------------
G-----0-----------0----------0---------0-----------------
D----2-----------0--------------------2------------------
A---2-----------2--------------------2-------------------
E--0-----------3--------------------0--------------------

E----------------------------------------0--0-3----------
B-------0-0-0-0---3-----------------0---0--0-------------
G--0-2----------2-----0------------0---0--0--------------
D-----------------------4--0--2---2---2------------------
A----0--2---2--------------------2-----------------------
E--3-----------------------------------------------------

E--0----7--7---5---3----2-----2----10---10---------------
B-------8--8---5--------2-----2----10---10---------------
G-----0-7--7---------------------------------------------
D----2---------------------------------------------------
A---2----------0-----------------------------------------
E--0---------------3-3--2--2--2---------10---------------

E--------------0---0--0--0-------------------------------
B---------0---0---0--0--0--------------------------------
G--------0---0---0--0--0---------------------------------
D-------2---2---2----------------------------------------
A------2---2---------------------------------------------
E--0--0----------------0-0~~~----------------------------

E----7----13---13----------5----12-----12--------10----------
B---7----------13---------5------------12--------------------
G--7---------------------5-----------------------------------
D------------------------------------------------------------
A------------------------------------------------------3---2-
E------------------------------------------------10--------2-

E-------0-------3--3--2--0--------5---5--------------0---3---
B------0-------0------------3---------------------1----------
G-----0-------0------------------------------0--0------------
D----2-------0--------------0---------------2--2-------------
A---2-------2-------------------------0----3-----------------
E--0-------3-------3--2-------------------0--------------3---

E--5-----------------4-----------------------------4----9----
B--6----6-------(5)------0-------0-------------6-------------
G--7--------7----6-----------1------------6------------------
D--------------------------------------6---------------------
A------------------------2-----------4-----------------------
E------------------------------------------------------------