Stop Censorship
 
 

 
 1-9 a b c d e f g h i j k l m n o p q r s t u v w x y z
   Dire Straits - Money For Nothing Tab    

Tabbed by Vegard Giskehaug (vegardgi@start.no)
Any questions, corrections etc. mail me...

Intro and main riff
e|--------------------------------------------|
b|------------6-------------------------------|
g|--7-7-7-5h7-5-7-5-3p0---00-3p0---35-5/3p0--|
d|--5-5-5-5-----5-5-3p0-0-00-3p0-0-35-5/3p0--|
a|--------------------------------------------|
e|--------------------------------------------|

e|--------------------------------------------|
b|----------8-8-------------------------------|
g|-7-7-5h77-7-7-5h7-5-----5--0-0-3p0----------|
d|-5-5-5--5-----5---5-8p5-5--0-0-3p0-0-35-5--|
a|-------------------------------------35-5--|
e|--------------------------------------------|
I spent some time getting the timing right, I`ll bet you will to.
But in a while it`s easy, just listen to the great song!
The rest of the song you`ll find elsewhere...
Submitted jan 03