Stop Censorship
 
 

 
 1-9 a b c d e f g h i j k l m n o p q r s t u v w x y z
   Depeche Mode - Enjoy The Silence Tab    

Depeche Mode
Enjoy the Silence
Album: Violator

Tune down half tone:
6:Eb
5:Ab
4:Db
3:Gb
2:Bb
1:Eb


Fig (1)


|-----------------------------------|--------------------------------|
|-----------------------------------|--------------------------------|
|---6---8---6--------6---8---6------|----------6---------------6---9-|
|---------------9----------------9--|--7---6-------9---7---6---------|
|-7---7---7---7----7---7---7---7----|--------7---7-----------7---7---|
|-----------------------------------|-9--9-----------9---9-----------|


Fig (2)

|--------------------------------|
|--------------------------------|
|---6---8---9--------------------|
|--------------9---9---6---9---6-|
|-7---7---7--7---7---7---7---7---|
|--------------------------------|


Fig (3) - Solo for the live version

|---------------------------------------------|
|---------------------------------------------|
|------------------9--------------------------|
|-9-11-11-11-11-11---11-9-11-11-11-11---------|
|-------------------------------------9-11----|
|------------------------------------------9--|


F#m Am
Words like violence, Break the silence,


D
Come crashing in Into my little world.


F#m Am
Painful to me, Pierce right through me,


D
Can`t you understand Oh my little girl.....




Bm D
All I ever wanted All I ever needed is

F#m
Here in my arms.

Bm D
Words are very unecessary

F
They can only do harm [F#m Am F#m Am]




F#m Am
Vows are spoken To be broken,

D
Feelings are intense, Words are trivial.

F#m Am
Pleasures remain (But) so does the pain,

D
Words are meaningless And forgettable......




Bm D
All I ever wanted All I ever needed is

F#m
Here in my arms.

Bm D
Words are very unecessary

F
They can only do harm [F#m Am F#m Am]


(repeat 2x more)