Stop Censorship
 
 

 
 1-9 a b c d e f g h i j k l m n o p q r s t u v w x y z
   Bobby Helm - Jingle Bell Rock Tab    

Chords: EADGBe EADGBe
====== ======
D --0232 A+5 -022-- <---not real sure of this one
Dmaj7 --0222 D7 --0212
D6 --0202 G 320003
Gbm -44222 Gm -55333
Em 022000 A7 002020
A 002220 B 113331
E 022100

intro:

e|--14-14-14----14-14-14--|--14-17--------------------------|-------
B|--15-15-15----14-14-14--|--15-15--15-17-17b(18)--17-15-12-|-10----
G|------------------------|---------14-16-16b(17)--16-14-11-|-11----
D|------------------------|---------------------------------|-------
A|------------------------|---------------------------------|-------
E|------------------------|---------------------------------|-------

D|---------------------------------------------------------------
A|---------------------------------------------------------------
E|--palm mute this bass run--------------------------------------
D|---------------------------------------------------------------
A|--0------------------------------------------------------------
E|---3--2--0------------------------------------------------------



| D Dmaj7 | D6 Dmaj7 |
verse1 | D6 Gbm | Em A |
| Em A | Em A |
| E | A+5 A |

| D Dmaj7 | D6 Dmaj7 |
| D6 Gbm | Em A |
| Em A | Em A |
| E A | D D7 |


| G | Gm |
bridge1 | D | D |
| E | E7 |
| A | A A7 |

| D Dmaj7 | D6 Dmaj7 |
| D6 Gbm | B |
| G | Gm |
| E A | D |



| D Dmaj7 | D6 Dmaj7 |
verse 2 | D6 Gbm | Em A |
| Em A | Em A |
| E A | D D7 |


| G | Gm |
bridge2 | D | D |
| E | E7 |
| A | A A7 |

| D Dmaj7 | D6 Dmaj7 |
| D6 Gbm | B |
| G | Gm |
| E A | E A |
| E A | D |


outro:

e|-----------------------------------------------10---------
B|-----15-15----15--17-17b(17.5)-(17.5)r17--15---10---------
G|--16----16-16-----16-16b(16.5)-(16.5)r16--14---11---------
D|-----------------------------------------------12---------
A|----------------------------------------------------------
E|----------------------------------------------------------

***** `&` *********************************************
** # **
** # Any corrections, questions, comments, **
** _#_ etc. welcome! **
** ( # ) **
** / O Kyle Barton (guitarkyle@yahoo.com) **
** ( === ) http:/www.kylebarton.com **
**** `---` ********************************************