Stop Censorship
 
 

 
 1-9 a b c d e f g h i j k l m n o p q r s t u v w x y z
   Billy Idol - Rebel Yell Solo Tab    



Transcribed By:Matej Matanovic
Artist:Billy Idol and Steve Stevens
Album:Rebel Yell
Song:Rebel Yell
E-mail:toodrunktobepunk@yahoo.com
Tuning:Standard

Dont worry about H it is same as B.
No one transcribed solo so i did it for you.
The xxx-s are one of stevens sick effects.


e|---------------------|--------7--------7-------|-----7----------------|
H|--10-----------------|-----7--------7----------|--7-------7--7--------|
G|--9b------------7----|--9b-------9b---------9b-|----------------------|
D|---------------------|-------------------------|----------------------|
A|---------------------|-------------------------|----------------------|
E|---------------------|-------------------------|----------------------|



e|-------------------|--------------------------|-----------------------|
H|-------------------|--------------------------|-----8~----------------|
G|-------------------|--------------------------|--7-----------------7--|
D|-------------------|--0--------7--9--8--7--8--|--------------7--8-----|
A|-------------------|-----7--9-----------------|-----------------------|
E|--9~---------------|--------------------------|-----------------------|



e|-----------------------|----------------------|
H|--8~--------------8b---|--7--5-------5b-------|
G|-------------7---------|--------7-------------|
D|-------7--8------------|----------------------|
A|-----------------------|----------------------|
E|-----------------------|----------------------|



e|----------------------------------|-----------------------------------|
H|--x-x-x-x-x-x-x-x-x-x-x-x-x-x-----|-----------------------------------|
G|--x-x-x-x-x-x-x-x-x-x-x-x-x-x-----|-------------------------2-3-------|
D|--x-x-x-x-x-x-x-x-x-x-x-x-x-x-----|-----------------0~----------------|
A|--x-x-x-x-x-x-x-x-x-x-x-x-x-x-0h1-|---2--0-1-2--0-1------2------------|
E|----------------------------------|-----------------------------------|



e|------------------------5-6-|--7--5-6-7--5-7r------5-6-|
H|----------------3~----------|--------------------------|
G|--4--2-3-4--2-3------4------|--------------------------|
D|----------------------------|--------------------------|
A|----------------------------|--------------------------|
E|----------------------------|--------------------------|



e|--7--7--7-5-5-7--------7--|----------------------------|
H|--------------------------|----------------------------|
G|--------------------9b----|--9r-7--9r--9r7--9--9b-7----|
D|--------------------------|----------------------------|
A|--------------------------|----------------------------|
E|--------------------------|----------------------------|



e|-------------------------12~-|-------------------------|
H|-----------------12----------|-------------------------|
G|--9--9b-9--7---------10------|-------------------------|
D|--------------9/-------------|-------------------------|
A|-----------------------------|-------------------------|
E|-----------------------------|-------------------------|



e|--x-x-----------------------------|
H|--x-x-x-x-------------------------|
G|--x-x-x-x-x-x---------------------|
D|------x-x-x-x-x-x-----------------|
A|----------x-x-x-x-x-x-------------|
E|--------------x-x-x-x-x-x-x-x-x-x-|